Utente:DracoRoboter/Musica

Da Wikimedia Italia.
Archivio Questa pagina è mantenuta solo per ragioni storiche.
Attenzione: Anno sconosciuto (secondo parametro).
Opzionalmente aggiungere l'utente che ha modificato, o inizialmente inserito, lo stato (chi=nomeUtente).

Autore DracoRoboter

jingle w@h hard copyright (c) wikimedia itala


  Asus Bsus              D
----------------|-----|--5-5--7--|-----|-5------------------
----------------|-----|--7-7--9--|-----|-5------------------
----------------|-----|--7-7--9--|--%--|-6------------------
--7s9-9-9-------|--%--|--7-7--9--|-----|-7------------------
--7s9-9-9-...x8-|-----|--5-5--7--|-----|-7------------------
--5s7-7-7-------|-----|--5-5--7--|-----|-5------------------

Autore DracoRoboter

jingle w@h sweet copyright (c) wikimedia itala

----------------------------|-------|-----------------------
----------------------------|-------|-----------------------
-----7------5-----5-----5---|--%xN--|-----------------------
---8---8--7---7-5---5-3---3-|-------|--3(lunga fading)------
----------------------------|-------|-----------------------
----------------------------|-------|-----------------------
----------------------------|-------|-----------------------


Autore DracoRoboter


jingle 001 copyright (c) wikimedia itala

improvvisazione sulla "struttura"

------------------------------------------------
------------------------------------------------
--------7------------------7---------10-7-------
----7-9---9--7---7--9--7-9---9-6-7-9------9-7---
---------------9------------------------------9-
------------------------------------------------